Guitar Tablature PSX

********************************************************************************
*                                                                              *
*                             Guitar Freaks                                    *
*                        the Arcade and PSX game                               *
*                                                                              *
*                Guitar Tablature for the Electric Guitar                      *
*                                                                              *
*           By: SloDeth            v1.1           July 7, 2001                 *
*                                                                              *
********************************************************************************

#----------------------------------PLEASE NOTE---------------------------------#
#This file is the author's own work and represents their interpretation of the #
#song. You may only use this file for private study, scholarship, or research. #
#------------------------------------------------------------------------------#



XXXXXXXXXXXXXX
 Introduction
XXXXXXXXXXXXXX


I'll get straight to it: this is a collection of guitar tablature for Guitar
Freaks.  Have you ever picked up this game, loved it, and said, "wow, I wish
playing these songs was that easy on the real guitar"?  Well, it will be more
difficult, but now you can be a rock star just like the ones in the arcade!

If you play guitar(if you don't, you won't find anything useful in here), you're
probably familiar with tablature.  It's like easy-to-read sheet music 
specifically for the guitar; go to www.olga.net or www.tabcrawler.com for more 
information.

As with most tablature, I won't ramble on too much.  Right now, I have tabbed
out all the songs from Easy Mode(!). I will tab out more in the future as I 
receive requests, to the best of my ability.  E-mail me at [email protected] to
make requests, corrections, or anything else.  Put "Guitar Freaks" in the 
subject to ensure a reply.



               VERSION HISTORY
--------------------------------------------------
v1.1 - 7/07/01 - eight songs complete.  When I get back in a month, I should
 have the PSX game...then I'll probably have some more tabs to add.
v1.0 - 7/02/01 - seven songs complete.
v0.9 - 3/15/01 - three or four songs complete.
v0.8 - dunno - first version...two songs complete.



     INDEX
------------------
Cutie Pie   
Chicago Blue   
The Endless Summer  
Fire   
Happy Man  
Cool Joe 
Hypnotica
Lunchtime Blues(from 2nd Mix)(tabbed by Evleye316)

================================================================================
--------------------------------------------------------------------------------
================================================================================


Song: Cutie Pie            Difficulty: *                     Tempo: 105bpm


This is a fun, simple song in the game, but the solo is a bit more complicated
in real life.  It's no Jimi solo, or even a Silverchair solo, but it uses a few
techniques that you might not be used to.  Play it slow first, and you'll catch
on quickly.  Use a nice, clean sound for this song.


Chorus Riff:
        play this top line to give the effect of the other chords
E|----9---9-----10--10---------------12--12-----10--10----|
B|---10--10-----10--10---------------10--10-----10--10----|
G|--------------------------------------------------------|
D|--------------------------------------------------------|
A|--------------------------------------------------------|
E|--------------------------------------------------------|


Verse Solo:

E|--------------------------------|--------------------------------------------|
B|--10--10--------10---12-10------|---12b14---12b14----10--10------------------|
G|-----------11-------------------|--------------------------------------------|
D|--------------------------------|--------------------------------------------|
A|--------------------------------|--------------------------------------------|
E|--------------------------------|--------------------------------------------|


E|--13b14-14-15-16-17-------------|--------------------------------------------|
B|--------------------------13b14-|---14-----15--16--17------------------------|
G|---------------------14---------|-------------------------14---14------------|
D|--------------------------------|--------------------------------------------|
A|--------------------------------|--------------------------------------------|
E|--------------------------------|--------------------------------------------|


E|---------17--------17--------17-------17-|-------17--22-----------17--15--12-|
B|---20b22-----20b22-----20b22----20b22----|-20b22-----22----------------------|
G|-----------------------------------------|-----------------------------------|
D|-----------------------------------------|-----------------------------------|
A|-----------------------------------------|-----------------------------------|
E|-----------------------------------------|-----------------------------------|

E|--------------------------------|-----------------------------------|--------|
B|---15--13-----------------------|-13--15--13------------------------|--------|
G|-----------14-------12--12--14--|-------------14--------12-12-12-12-|-14-----|
D|--------------------------------|-----------------------------------|--------|
A|--------------------------------|-----------------------------------|--------|
E|--------------------------------|-----------------------------------|--------|

The last measure of the solo goes directly into the chorus riff.  The song
does one chorus, one verse, one chorus, one verse, then ends with two choruses.


================================================================================
--------------------------------------------------------------------------------
================================================================================


Song: Chicago Blue            Difficulty: **                   Tempo: 85bpm

This is a nice, simple blues song.  The solo near the end is pretty easy, so
don't worry about it.


                              main/background riff
E|------------------|------------------|-------------------|-------------------|
B|--------------0---|---2-----0----2---|--------------0----|--2----------------|
G|-----------2------|------------------|-----------2-------|-------------------|
D|--------3---------|------------------|--------3----------|-------------------|
A|--0--0------------|------------------|--0--0-------------|-------------------|
E|------------------|------------------|-------------------|-----3-------------|

                                   solo part
E|----------9-------|----------12~-----|------------9------|---18b19~----------|
B|----------8-------|------------------|------------8------|-------------------|
G|------------------|------------------|-------------------|------------0--0--2|
D|------------------|------------------|-------------------|-------------------|
A|------------------|------------------|-------------------|-------------------|
E|------------------|------------------|-------------------|-------------------|


E|------------------|------------------|-------------------|-------------------|
B|------------------|------------------|-------------------|-------------------|
G|--5--2------------|------------------|---8b9-------------|-----------5--7----|
D|------------------|------------------|-------------------|-------------------|
A|------------------|------------------|-------------------|-------------------|
E|------------------|------------------|-------------------|-------------------|


E|------------------|------------------|-------------------|-------------------|
B|------------------|------------------|-----8b10~---------|-------------------|
G|--------5~--------|------------------|-------------------|------------0--0--2|
D|--7---------------|------------------|-------------------|-------------------|
A|------------------|------------------|-------------------|-------------------|
E|------------------|------------------|-------------------|-------------------|


E|------------------|------------------|-------------------|-------------------|
B|------------------|------------------|-------------------|-------------------|
G|-5--2-------------|------------------|---8b9-------------|-----------5--7----|
D|------------------|------------------|-------------------|-------------------|
A|------------------|------------------|-------------------|-------------------|
E|------------------|------------------|-------------------|-------------------|

       switch rapidly
E|------------------|------------------|-------------------|-------------------|
B|--------5-6-5-6-5-|------------------|----8b10~----------|-------------------|
G|--7---------------|------------------|-------------------|-------------------|
D|------------------|------------------|-------------------|-------------------|
A|------------------|------------------|-------------------|-------------------|
E|------------------|------------------|-------------------|-------------------|


E|------------------|------------------|-------------------|-------------------|
B|------9-----------|---------5--------|-----7-------------|-------------------|
G|--/9--------------|------------7--5--|--7------------5---|-------------------|
D|------------------|------------------|-------------------|-------------------|
A|------------------|------------------|-------------------|-------------------|
E|------------------|------------------|-------------------|-------------------|


E|------------------|-------------------|------------------|-------------------|
B|--------------10--|--8----------------|------------------|-------------------|
G|--------9--9------|-----9--7--9--7----|---7----7b9-------|-----------12-12-14|
D|------------------|-----------------10|------------------|-------------------|
A|------------------|-------------------|------------------|-------------------|
E|------------------|-------------------|------------------|-------------------|

The rest is the same as written besides the first two lines, except one octave
up.  You may need to transpose some of it up to the higher strings to make it
easier.


================================================================================
--------------------------------------------------------------------------------
================================================================================

Song: The Endless Summer         Difficulty: ***                 Tempo: 160bpm


This song is pretty difficult in the game AND on the real guitar.  I'm not sure
if I got all the chords right, but everything else should be fine.  Blues scales
aren't that difficult, but some of the solos really jump around.  For this song,
you need a guitar with 22 frets and a whammy bar.


NOTE: "~" means use vibrato with the whammy bar on the preceeding note.


    C   dive w/whammy      C       dive w/whammy                
E|--0--------------------|-0------------------------|--------------------------|
B|--1--------------------|-1------------------------|----------1~--------------|
G|--0--------------------|-0----------------------0-|-2~--2-4------------------|
D|--2--------------------|-2------------------------|--------------------------|
A|--3--------------------|-3------------------------|--------------------------|
E|-----------------------|--------------------------|--------------------------|

E|-0---------------------|-------------5-8---5------|-5-----------8------------|
B|-1---------------------|-1---------8--------------|-5------------10--12---8--|
G|-0--4--0~----------0-2-|----0~--------------------|-6--------------9---------|
D|-----------------------|--------------------------|-7------------------------|
A|-----------------------|--------------------------|--------------------------|
E|-----------------------|--------------------------|--------------------------|


E|-----------------------|-12-----------------------|--------------------------|
B|-10---10-12-13---------|-13--12-------------------|-13----------1------------|
G|-----------------------|-12------12------------12-|----14-----0---2----------|
D|-----------------------|--------------------14----|---------2----------------|
A|-----------------------|--------------------------|--------------------------|
E|-----------------------|--------------------------|--------------------------|

E|-17----20-------19-----|--------------------------|-------------8----12p10p8-|
B|----------22-----------|--------------------------|---------------10---------|
G|-------------21--------|---2-2-2-5-------4---4-5-7|----5--8p7p5--------------|
D|---------------------3-|-3---------3-5-5---5------|-7-----------------------3|
A|-----------------------|--------------------------|--------------------------|
E|-----------------------|--------------------------|--------------------------|

                                                       slide fret hand down
                                                       while picking rapidly
E|-------------------------------|---------------------------------------------|
B|-------------------------------|-------------5-5-----------------------------|
G|----2-2-2-5---------4---4-5-7--|---------5-5---------------------------------|
D|--3---------3-5---5---5--------|-----6-6-------------------------------------|
A|-------------------------------|-7-7----------------12---------/---------0---|
E|-------------------------------|---------------------------------------------|

    C   dive w/whammy      C       dive w/whammy          repeat 4x
E|--0--------------------|-0------------------------|--------------------------|
B|--1--------------------|-1------------------------|---[----10]---------------|
G|--0--------------------|-0------------------------|---[8b9---]---------------|
D|--2--------------------|-2------------------------|--------------------------|
A|--3--------------------|-3------------------------|--------------------------|
E|-----------------------|--------------------------|--------------------------|

     2x                                     3x                             3x
E|-----------------------|--------------------------|--------------8-10-[11b12]|
B|-[----10]--------------|--------------------------|---------8-10-----------13|
G|-[8b9---]--8b9-7-9-----|----------5-7-5--[8b9]----|-----7-9------------------|
D|-------------------7-10|-7--5---5--------------10-|7-10----------------------|
A|-----------------------|------7-------------------|--------------------------|
E|-----------------------|--------------------------|--------------------------|

                                       3x
E|-------------------------------|----------------------------|
B|-------------------------------|---[----10]-----------------|
G|----2-2-2-5---------4---4-5-7--|---[8b9---]-8b9--8b9--7-----|
D|--3---------3-5---5---5--------|----------------------------|
A|-------------------------------|----------------------------|
E|-------------------------------|----------------------------|
                                                                           C 
E|-------------------------------|---------------------------------------|-0----
B|-------------------------------|-------------5-5-----------------------|-1----
G|----2-2-2-5---------4---4-5-7--|---------5-5---------------------------|-0----
D|--3---------3-5---5---5--------|-----6-6-------------------------------|-2----
A|-------------------------------|-7-7----------------12------/------0x--|-3----
E|-------------------------------|---------------------------------------|------


****BASS PART:****

G|----------------------------------|
D|-------------------------2-0------|    Riff A
A|-0-0-3-3-0-0-3-3-0-0-3-3-----3----|
E|----------------------------------|

G|----------------------------------|
D|----------------------------------|    Riff B
A|-----2-2-----2-2-----2-2----------|
E|-3-3-----3-3-----3-3-----3-3-3----|

G|----------------------------------|
D|----------------------------------|    Riff C
A|----------------------------------|
E|-1-1-1-1-1-1-3--3-3-3-3-3-3-3-3---|

G|----------------------------------|
D|----------------------------------|    Riff D
A|----------------------------------|
E|-5-5-5-5-5-5-5-5-5-5-5-5-5-5-5--1-|

G|----------------------------------|
D|----------------------------------|    Riff E
A|----------------------------------|
E|-0-0-0-0-0-0-0-0-0----------------|

G|----------------------------------|
D|----------------------------------|    Riff F
A|-0-0-3-3-0-0-3-3-----2-2------2-2-|
E|-----------------3-3-----3-3------|

The song goes like this:
             A A | A B A A | A B A A | C D C E | A A | F A F A | C D C E 


================================================================================
--------------------------------------------------------------------------------
================================================================================



Song: Fire                  Difficulty: ***                    Tempo: 184bpm

This is a pretty short, intense song.  It is an 80's metal song at heart, 
between the glorious solos and the deep speed riffs.  Use some distortion with
strong mids. 


E|--7-------5------------|--19------17--------------|---5---4---0--------------|
B|------8------5---------|------20------17----------|--------------------------|
G|-----------------------|--------------------------|--------------------------|
D|-----------------------|--------------------------|--------------------------|
A|-----------------------|--------------------------|--------------------------|
E|-----------------------|--------------------------|--------------------------|


E|--5---4---11b12--------|                          |--------------------------|
B|-----------------------|                          |--------------------------|
G|-----------------------|now comes the main riff...|--------9-------11--------|
D|-----------------------|                          |--------9-------11--------|
A|-----------------------|                          |--------7--------9--------|
E|-----------------------|                          |--0--0--0--0--0--0--0--0--|


E|-----------------------|--------------------------|--------------------------|
B|-----------------------|--------------------------|--------------------------|
G|-12-------11-----7----9|--------9-------11--------|-12-------14---12---------|
D|-12-------11-----7----9|--------9-------11--------|-12-------14---12---------|
A|-10--------9-----5----7|--------7--------9--------|-10-------12---10---------|
E|--0--0--0--0--0--0----0|--0--0--0--0--0--0--0--0--|--0--0--0--0----0---------|


E|-----------------------|--------------------------|--------------------------|
B|-----------------------|--------------------------|--------------------------|
G|------9-------11-------|-12-------11-----7----9---|--------9----11----12-----|
D|------9-------11-------|-12-------11-----7----9---|--------9----11----12-----|
A|------7--------9-------|-10--------9-----5----7---|--------7-----9----10-----|
E|0--0--0--0--0--0--0--0-|--0--0--0--0--0--0----0---|--0--0--0--0--0--0--0--0--|



E|-----------------------|                          |--------2--3--------------|
B|-----------------------|                          |--0--0--------------------|
G|---14------------------|   to the verse/bridge    |--------------------------|
D|---14------------------|                          |--------------------------|
A|---12------------------|                          |--------------------------|
E|-0--0------------------|                          |--------------------------|


E|-----3b5---------------|3h5p3-2-------------------|--------------------------|
B|-----------------------|--------------------3-----|-5------------------------|
G|-----------------------|--------------------------|--------------------------|
D|-----------------------|--------------------------|--------------------------|
A|-----------------------|--------------------------|--------------------------|
E|-----------------------|--------------------------|--------------------------|



E|--------2--3-----------|---6b7--------------------|-5------------------3h5p3-|
B|--0--0-----------------|--------------------------|--------------------------|
G|-----------------------|--------------------------|--------------------------|
D|-----------------------|--------------------------|--------------------------|
A|-----------------------|--------------------------|--------------------------|
E|-----------------------|--------------------------|--------------------------|


E|-----------------------|                          |--2--3--5---14-15-17------|
B|-----------------------|repeat; high part is four |--------------------------|
G|-----------------------|   half steps higher      |--------------------------|
D|-----------------------|                          |--------------------------|
A|-----------------------|                          |--------------------------|
E|-----------------------|                          |--------------------------|

                             just play it up an octave, come in a note later
E|-3--2--0--15-14-12--0-2|-3-----------3---5---7----|---7---5---3--5-----------|
B|-----------------------|--------------------------|--------------------------|
G|-----------------------|--------------------------|--------------------------|
D|-----------------------|--------------------------|--------------------------|
A|-----------------------|--------------------------|--------------------------|
E|-----------------------|--------------------------|--------------------------|


E|                                                  |--------------------------|
B|   in here, he plays a bunch of crazy solos...    |--------------------------|
G|                                                  |---9--9--9--9-------------|
D| after those, go back to the main riff and end on:|---9--9--9--9-------------|
A|                                                  |---7--7--7--7-------------|
E|                                                  |---0--0--0--0-------------|


================================================================================
--------------------------------------------------------------------------------
================================================================================


Song: Happy Man           Difficulty: ****                    Tempo: 180bpm

This is a light-hearted punk song.  It's one of the more difficult songs in the
game, and it sounds difficult for the real guitar, but it uses simple scales
and shapes throughout the song.  The only hard part is getting it up to speed.
If you've played many 80's metal songs filled with power chords, it won't be a
problem.


*INTRO*

E|-----------------------|--------------------------|--------------------------|
B|-----------------------|--------------------------|--------------------------|
G|----------------6--4---|-----------------4--------|-----------------6--4-----|
D|------6----7----4--2---|-------6----7----2--------|-------6----7----4--2-----|
A|-7----4----5-----------|--7----4----5-------------|--7----4----5-------------|
E|-5---------------------|--5-----------------------|--5-----------------------|

                             palm-muted...                      
E|-----------------------|--------------------------|--------------------------|
B|-----------------------|--------------------------|--------------------------|
G|----------------4------|--------------------------|--------------------------|
D|------6----7----2--2-2-|-2-2-2-2-2-2-2-2-2-2-2-2--|-2-2-2-2-2-2-2------------|
A|-7----4----5-----------|--------------------------|--------------------------|
E|-5---------------------|--------------------------|--------------------------|

*SOLOS*

E|-----------------------|--------------------------|--------------------------|
B|--5--------------------|--------------------------|--------------------------|
G|-----6-------------4-6-|-4------------------------|-------4----4--6-4-6-7-6-7|
D|---------7-----7--7---7|----6---------------4-6---|-7-6-7----7---------------|
A|-----------------------|--------7---------7-------|--------------------------|
E|-----------------------|--------------------------|--------------------------|

  hammer rapidly multiple times
E|-----------------------|-12-----------------------|--------------------------|
B|~5h7p5~-----------10---|----14------------14------|--------------------------|
G|-------~7h9p7~---------|-------14---14-16----14---|-16-13-------------13-----|
D|--------------7--------|--------------------------|-------14----14-16--------|
A|-----------------------|--------------------------|--------------------------|
E|-----------------------|--------------------------|--------------------------|

                                         hammer rapidly multiple times
E|---------------------------------------|~12h14p12~-----------------17--------|
B|----------12----12--14-12-14-15-14-15--|----------~15h17p15~-----------------|
G|-14-13-14----14------------------------|----------------------14-------------|
D|---------------------------------------|-------------------------------------|
A|---------------------------------------|-------------------------------------|
E|---------------------------------------|-------------------------------------|
          
    *BRIDGE*                             use vibrato
                                           on v
E|------------10---------|--------------------------|------------10------------|
B|-----7--10---x---10--7-|------9--12---15---17~----|-----7--10---x----10--7---|
G|-7---x---x---7----x--x-|--9---x---x----x----x-----|-7---x---x---7-----x--x---|
D|-x---4---7--------7--4-|--x---6---9---12---15~----|-x---4---7---------7--4---|
A|-5---------------------|--7-----------------------|-5------------------------|
E|-----------------------|--------------------------|--------------------------|

                            *HEAVY BRIDGE*
  hit twice   | hit once
E|-5-7-9-10-12--15-17----|--------------------------|--------------------------|
B|-x-x-x--x--x---x--x----|--------------------------|--------------------------|
G|-2-4-6--7--9--12-14----|--------------------------|--------------------------|
D|-----------------------|-------------------7--7---|--------------------------|
A|-----------------------|-7--5--7--5--7--5--5--5---|-7--5--7--5--7--5-2-------|
E|-----------------------|-5--3--5--3--5--3---------|-5--3--5--3--5--3-0-------|

                                                   palm muted...
E|--------------------------|-----------------------|--------------------------|
B|--------------------------|-----------------------|--------------------------|
G|--------------------------|-----------------------|--------------------------|
D|-------------------7--7---|-----------------------|--------------------------|
A|-7--5--7--5--7--5--5--5---|-7--5--7--5--7---2---2-|-2-2-2-2-2-2-2-2-2-2-2----|
E|-5--3--5--3--5--3---------|-5--3--5--3--5---0---0-|-0-0-0-0-0-0-0-0-0-0-0----|

*ENDING*

E|-12-----------------------|--------------------------|
B|----14------------14------|--------------------------|
G|-------14---14-16----14---|-16-13-------------13-----|
D|--------------------------|-------14----14-16--------|
A|--------------------------|--------------------------|
E|--------------------------|--------------------------|

                                           hammer rapidly multiple times
E|---------------------------------------|~12h14p12~-----------------16/17-----|
B|----------12----12--14-12-14-15-14-15--|----------~15h17p15~-----------------|
G|-14-13-14----14------------------------|----------------------14-------------|
D|---------------------------------------|-------------------------------------|
A|---------------------------------------|-------------------------------------|
E|---------------------------------------|-------------------------------------|


================================================================================
--------------------------------------------------------------------------------
================================================================================


Song: Cool Joe             Difficulty: ****                    Tempo: 92bpm

This is a fast R&B song with some crazy solos.  I figured out the first riff...

E|--------------------------------|
B|--------------------------------|
G|--------------------------------|
D|--------------------------------|
A|--------------------------------|
E|-1---1-1---1----------4--5--6---|

The rest is beyond my ability, so forget about it...


================================================================================
--------------------------------------------------------------------------------
================================================================================


Song: Hypnotica            Difficulty: ******                    Tempo: 135bpm

This is a techno song, so the guitar parts don't really stand out.  It's rather
simple to play on guitar, since the riffs are simple and repeated many times.  
I'll go riff-by-riff on this one.


E|-----------------------------|
B|-----------------------------|
G|-----------------------------|    Riff A
D|-6-6-6-4-6-6-6-4--6-6-6-4-6--|
A|-----------------------------|
E|-----------------------------|

E|-----------------------------|
B|-----------------------------|
G|-----------------------------|    Riff B
D|--------------4-4--4---4-6---|
A|--------4-6-6--------6-------|
E|-4-4--4----------------------|

E|----------------------------------|
B|----------------------------------|
G|-----------------------------6-6--|    Riff C
D|--------------4-4--4---4-6---6-6--|
A|--------4-6-6--------6-----0-4-4--|
E|-4-4--4---------------------------|

E|---------------------------------------|
B|---------------------------------------|
G|---------------------------------------|    Riff D
D|--------------4-4--4---4-6-4-6--4-6-6--|
A|--------4-6-6--------6-----4-6--4-6-6--|
E|-4-4--4--------------------2-4--2-4-4--|

E|---9---9---9---9----------------|
B|----------------------6---4-----|
G|-6---6---6---6---6----6---4-----|    Riff E
D|----------------------4---2-----|
A|--------------------------------|
E|--------------------------------|

E|-------------8--------------------8------|
B|-8-10---8-10---8-10---8-10---8-10---8-10-|
G|-----------------------------------------|    Riff F
D|-----------------------------------------|
A|-----------------------------------------|
E|-----------------------------------------|

E|-------------8--------------------10-8---|
B|-8-10---8-10---8-10---8-10---8-10--------|
G|-----------------------------------------|    Riff G
D|-----------------------------------------|
A|-----------------------------------------|
E|-----------------------------------------|

   5x  5x     5x  5x
E|----------------------|
B|----------------------|
G|-10--10-----10--10----|    Riff H
D|-10--10-----10--10----|
A|--8---8------8---8----|
E|----------------------|


Riff Sequence:
                     A A A A | B C B D | E E A A | B C B D | F G F G | H H


================================================================================
--------------------------------------------------------------------------------
================================================================================


"Lunchtime Blues" from Guitar Freaks Append 2nd Mix by Bemani/Konami
Tabbed by: Felix "Evleye316" Pineiro      ([email protected])

This song is pretty easy, but you may have to do some finger stretching 
on some parts. This about 95-98% accurate. Listen to the song for the 
right rhythm and timing. This is the videogame version.  I say this because 
there is a soundtrack for GF 2nd Mix that has a longer version of this very 
song. If I ever get around to buying it, I'll try my best to tab it out. This 
song sounds amazing! Try it out.  Here goes...

Intro (Phase 1)
E----------------------------------------------------------------------------
A----------------------------------------------------------------------------
D----------------------------------------------------------------------------
G----------------------------------------------------------------------------
B-17-17/9~~-17-17/9~~-17--17-17/9~~-17--17--17--17/9~~-17-17-19--17----------
E----------------------------------------------------------------------------

Main Riff (Phase 2)
E----------------------------------------------|----------------------------
A----------------------------------------------|----------------------------
D-------------------------17b19r17-15-15~-17b19|-15-17----------------------
G---------------------15-----------------------|-------17-19----------------
B-18-18-17-17-15-15----------------------------|--------------17-19-19b21-17
E----------------------------------------------|----------------------------
(This is the first ending of the riff)
Main Riff(cont.)
E----------------------------------------------------------------------------
A----------------------------------------------------------------------------
D----------------------------------------------------------------------------
G----------------------------------------------------------------------------
B-22-21-19--17~~~------------------------------------------------------------
E----------------------------------------------------------------------------
                    
The second time around play the opening riff, but end it with this riff.
E----------------------------------------------------------------------------
A----------------------------------------------------------------------------
D--15-17------------------17b19r17-15----------------------------------------
G--------15-16-17------------------------------------------------------------
B-----------------15-16------------------------------------------------------
E----------------------------------------------------------------------------

Verse (Phase 3)
E--------------------------------------|-------------------------------------
A--------------------------------------|-------------------------------------
D-------------------------17b19r17-15--|-17-17-15-17--12-15-12---------------
G--17-17bbbb17.5r17-17-15--------------|-17-17-15-17--12-15-12-x-2-----------
B--------------------------------------|-17-17-15-17--12-15-12---------------
E--------------------------------------|-17-17-15-17--12-15-12---------------
                                         (play this part twice) 

Like the main riff, this part also has a second ending. After you 
repeat the first part of phase 3 (the part before the vertical lines), then do
this part 
E----------------------------------------------------------------------------
A----------------------------------------------------------------------------
D--17-15---------------------------------------------------------------------
G---------17-19--------------------------------------------------------------
B---------------17-19-19b21r19-17--22-21-19-17~~~----------------------------
E----------------------------------------------------------------------------

Phase 4
E----------------------------------------------------------------------------
A----------------------------------------------------------------------------
D----------------------------------------------------------------------------
G--------------------------------------------17-19-17------------------------
B-15-18-18-18--15-18-18--15-21-21--15-22-22----------------------------------
E-----------------------------------------------------21-21~~~---------------

Repeat Main Riff, but use this final ending, instead of the other two
E----------------------------------------------------------------------------
A----------------------------------------------------------------------------
D--17b19r17-15-17----------------17b19r17-15-x-2-----------------------------
G-----------------15-16-17---------------------------------------------------
B--------------------------15-16---------------------------------------------
E----------------------------------------------------------------------------
                                                  
Now play a similar riff, but slower
E----------------------------------------------------------------------------
A----------------------------------------------------------------------------
D--17b19r17-15-17--------------17b19r17-17-15--------------------------------
G-----------------15-16-17---------------------------------------------------
B--------------------------15------------------------------------------------
E----------------------------------------------------------------------------

Now play these awkward chords to finish it up. I'm not sure if these 
are accurate, but they sound pretty close...

Outro
E---------------12/----------------------------------------------------------
A---------------12/-slide-up-the-fretboard-----------------------------------
D---------------12/----------------------------------------------------------
G-12-12-12-12---12/----------------------------------------------------------
B-14-14-14-14---14/----------------------------------------------------------
E-15-15-15-15---15/----------------------------------------------------------

Thats pretty much it. I bet it would sound a lot better if you had a 
tube screamer, or bluesbreaker pedal, but I'm not too sure because I don't 
own any of those devices.  Anyway, I hope you enjoy this tab.  I have more 
on the way.  Cheers!


================================================================================
--------------------------------------------------------------------------------
================================================================================


The end of the guide.  Visit http://listen.to/GFCentral for the rest of your
Guitar Freaks needs...it sure helped me.  Visit my site at 
http://go.to/SloDethFAQs for the latest of this tablature and some of my other
work.  Visit Dirt Cheep Music if you need a cheap electric guitar.


This document created by Martin Silbiger.  It may be distributed freely, but it
may not be distributed for profit without prior consent.


#----------------------------------PLEASE NOTE---------------------------------#
#This file is the author's own work and represents their interpretation of the #
#song. You may only use this file for private study, scholarship, or research. #
#------------------------------------------------------------------------------#